It is currently Thu Nov 23, 2017 11:58 pm


Post a new topicPost a reply Page 1 of 1   [ 12 posts ]
Author Message
 Post subject: we got the magic QRII
PostPosted: Thu Dec 27, 2012 8:44 pm 
Senior Member
User avatar

Joined: Wed Jan 05, 2011 11:22 pm
Posts: 84
Location: North Eastern Wisconsin - Back Home!
I have looked and cannot find any tabs to the intro riff for WGTM on QR II

do any of you who are gifted at tabbing songs have that little run? If so I would really appreciate it if you would share it with me and the board -- Im learning the guitar and wanted to use that run as a dexterity exercise - playing Randy's stuff keeps me motivated otherwise I get frustrated and put the guitar down waaay tooooo quickly

thanks in advance

I pray all have a great new year to come.


kel

_________________
Verbum Domini Manet en Aeternum

Kel


Top
 Profile  
Reply with quote  
 Post subject: Re: we got the magic QRII
PostPosted: Sat Dec 29, 2012 4:59 pm 
Mass Poster

Joined: Mon Jun 11, 2007 5:49 pm
Posts: 1734
Location: UK
I love that song! I think the intro is pretty much like this;

------------------------------------------------
------------------------------------------------
--------------------------------------------2-4-
--------------------0-4-2--------0-4-2-0-4-----
-------0-4-2-0-2-4--------0-2-4----------------
-0-2-4------------------------------------------ repeat - then chord break

F5 D5 B5
----------------------------------2-4-
---------3---------------------2-5----
---------2-------4----------2-4-------
-4-------0-------4-------2-4----------
-4---------------2----2-4-------------
-2----------------2-4-----------------

The chords get a little lost in the mix. In the above you have to start playing the last run imediatly on an upstroke after hitting the B5. In the studio mix I imagine the chords are a separate guitar. For playing it solo, the B chord should be held for a measure equal to the follow triplets. This makes I awkward as you are playing it like the last in a group of triples before beginning the actual triplet run.

Disclaimer; my theory, timing and tab are very rusty :P Also note similarity to a certain part of S.A.T.O

Rob

_________________
www.rstorey.co.uk


Top
 Profile  
Reply with quote  
 Post subject: Re: we got the magic QRII
PostPosted: Sat Dec 29, 2012 5:21 pm 
Mass Poster

Joined: Mon Jun 11, 2007 5:49 pm
Posts: 1734
Location: UK
Appears to be in the key of A major. Pentatonic scale to the ready if you feel like some improvisation!

Rob

_________________
www.rstorey.co.uk


Top
 Profile  
Reply with quote  
 Post subject: Re: we got the magic QRII
PostPosted: Wed Jan 02, 2013 4:46 pm 
Senior Member
User avatar

Joined: Wed Jan 05, 2011 11:22 pm
Posts: 84
Location: North Eastern Wisconsin - Back Home!
thank you so much for your help -- have a great New Year
:D

_________________
Verbum Domini Manet en Aeternum

Kel


Top
 Profile  
Reply with quote  
 Post subject: Re: we got the magic QRII
PostPosted: Wed Jan 02, 2013 4:48 pm 
Senior Member
User avatar

Joined: Wed Jan 05, 2011 11:22 pm
Posts: 84
Location: North Eastern Wisconsin - Back Home!
I do love the use of that part in SATO as well


kel

_________________
Verbum Domini Manet en Aeternum

Kel


Top
 Profile  
Reply with quote  
 Post subject: Re: we got the magic QRII
PostPosted: Wed Jan 02, 2013 11:18 pm 
Mass Poster

Joined: Mon Jun 11, 2007 5:49 pm
Posts: 1734
Location: UK
You're welcome! Not many people show the love for the old QR records, but I love them, so I'm happy to share some riffs!

Hope you had a good holiday season 8)

Rob

_________________
www.rstorey.co.uk


Top
 Profile  
Reply with quote  
 Post subject: Re: we got the magic QRII
PostPosted: Thu Jan 10, 2013 8:25 pm 
Junior Member

Joined: Tue Oct 09, 2012 8:31 pm
Posts: 7
Hey Rob, thanks for posting the tab for this song. I've been trying to learn it as it's one of my favorites. Any chance on getting
the lead too? lol

Randy makes it sound so melodic and smooth that it's hard to duplicate. I wonder if he picks all the notes, or uses hammer ons and pull offs.

Anyway, thanks again.

david


Top
 Profile  
Reply with quote  
 Post subject: Re: we got the magic QRII
PostPosted: Fri Jan 18, 2013 8:36 pm 
Mass Poster

Joined: Mon Mar 20, 2006 10:19 am
Posts: 5171
dougalhaven wrote:
Any chance on getting the lead too?

david



Have fun.

H +Q E E +Q +H E E
|---------------|-----------------|
|-------------3-|-(3)--(3)--------|
|-------------2-|-(2)--(2)--------|
|-------------0-|-(0)--(0)------4-|
|-4----(4)------|---------------2-|
|-2----(2)------|-----------------|


|-3--| |-3--| |--3--| |--3--|
E E E E E E E E E E E E +H. Q
|------------------------12h14-16-|-(16)-----------|
|----------------9h12-14----------|----------------|
|-----------9h11------------------|----------------|
|------9h11-----------------------|----------------|
|-9h11----------------------------|----------------|
|---------------------------------|-----------x\---|


|-3-| |-3-| |-3-| |-3-| |-3-| |-3-| |-3-|
E E E E E E E E E E E E E E E E E E E E E Q
||--------------------------|-----------------------||
||o-------------------------|----------------------o||
||--------------------------|-----------------2-4---||
||------------------2-0-4-2-|-----2-0-4-2-0-4-------||
||o-------0-2---0-4---------|-0-4------------------o||
||--0-2-4-----4-------------|-----------------------||


~
|-3--| |-3--| |-3--| |-3--| |-----3-----|
E E E E E E E E E E E E E +E +E S +S H S S
|-12p9----9---------------------|--------------------------------------|
|------12---12-9-12p9----9------|--------------------------------------|
|---------------------11---11-9-|-11-(11)b13-(11)-11b13r(11)p9---------|
|-------------------------------|---------------------------------9h11-|
|-------------------------------|--------------------------------------|
|-------------------------------|--------------------------------------|


~~~~
S E E. S S S E E. S S E. S E. +S +H
|-------------------------|--------------------------|
|-------------------------|--------------------------|
|-9---9-------9---9-------|-9-----11b13-(11)-(11)----|
|--------9h11--------9h11-|----11--------------------|
|-------------------------|--------------------------|
|-------------------------|--------------------------|


|-3--| |-3--| |-3--| |-3--|
E E E E E E E E E E E E E +E +E +H E
|------------------------------|----------------------------9-|
|-----------------------9h10p9-|-12-(12)b14-(12)-(12)b14------|
|-------------9-11p9h11--------|------------------------------|
|--------9h11------------------|------------------------------|
|-7h9-11-----------------------|------------------------------|
|------------------------------|------------------------------|


|-3--| |-3--| |-3--| |-3--| |-3--| |-3-|
E E E E E E E E E E E E E E E E E E H
|-12p9----9---------------------|--------------------|
|------12---12-9----------------|--------------------|
|----------------11p9----9------|-9------------------|
|---------------------11---11-9-|---11-9-------------|
|-------------------------------|--------11-9-7-6----|
|-------------------------------|--------------------|


|-3--| |-3--| |-3--| |-3--|
E E E E E E E E E E E E E +E +E +H E
|------------------------------|-----------------------------|
|-----------------------9h10p9-|-12-(12)b14-(12)-(12)b14-----|
|-------------9-11p9h11--------|-----------------------------|
|--------9h11------------------|-----------------------------|
|-7h9-11-----------------------|-----------------------------|
|------------------------------|-----------------------------|


|--3--| |--3--| |--3--| |--3--| |--3--| |--3--|
E E E E E E E E E E E E E E E E E E Q. E
|-12-14-16-14-12----12-14-16-14-12----|-16-17-19-17-16-17-------------|
|----------------16----------------16-|-------------------19----(7)---|
|-------------------------------------|-------------------------------|
|-------------------------------------|-------------------------------|
|-------------------------------------|-------------------------------|
|-------------------------------------|-------------------------------|


|-3-| |-3-| |-3-| |-3-| |-3-| |-3-| |-3-| |-3-|
E E E E E E E E E E E E E E E E E E E E E E E E
|-10-9-7--------------------|-------------------------|
|--------10-9-7-------------|-7-----------------------|
|---------------9-7-6-7-6---|---9-7-9-7-6-7-6---6-----|
|-------------------------9-|-----------------9---9-6-|
|---------------------------|-------------------------|
|---------------------------|-------------------------|


PM--------------------|
|-3-| |-3-| |-3-| |-3-| |--3--| |--3--|
E E E E E E E E E E E E E E E E S E E S E E E
|-------------------------|----------------17\-x---17p16p14----|
|-------------------------|-----------17-----------------------|
|-------------------------|-/14-14-14--------------------------|
|-7-7-7-7-7-7-7-7-7-7-7-7-|------------------------------------|
|-------------------------|------------------------------------|
|-------------------------|------------------------------------|


H +H
|-17----(17)----*|
|---------------*|
|---------------*|
|---------------*|
|---------------*|
|---------------*|


Top
 Profile  
Reply with quote  
 Post subject: Re: we got the magic QRII
PostPosted: Fri Jan 18, 2013 10:59 pm 
Mass Poster
User avatar

Joined: Sun Feb 26, 2006 8:16 pm
Posts: 1050
Paul!! You back in the New York groove??


Top
 Profile  
Reply with quote  
 Post subject: Re: we got the magic QRII
PostPosted: Sat Jan 19, 2013 6:14 pm 
Junior Member

Joined: Tue Oct 09, 2012 8:31 pm
Posts: 7
Wow Paul, this is awesome. I've been wanting to learn this song ever since hearing it. If you don't mind indulging my ignorance, what does the nomenclature on top mean? I see an "S" a bunch of "E" some "Q" and some "H"s too. Also, what does the "3" designate?

Your tab starts with some notes and on top you have written: H + Q E E + Q + H E E and I'm sorry to say that I don't understand what it means.

Thanks Again, Paul!

david

(907) 451-8450
wonderheart5@gmail.com


Top
 Profile  
Reply with quote  
 Post subject: Re: we got the magic QRII
PostPosted: Sat Jan 19, 2013 9:40 pm 
Mass Poster

Joined: Mon Mar 20, 2006 10:19 am
Posts: 5171
Geo Sav wrote:
Paul!! You back in the New York groove??


Not interested in the discussions here any longer, but I still want to help further anyone's desire to play Randy's music.

dougalhaven, the E = eighth note, Q = quarter notes, H = half notes, s = slide, 3 = triplet... 'll email you the PowerTab and the Guitar Pro tab.


Top
 Profile  
Reply with quote  
 Post subject: Re: we got the magic QRII
PostPosted: Sun Jan 20, 2013 11:39 am 
Mass Poster

Joined: Mon Jun 11, 2007 5:49 pm
Posts: 1734
Location: UK
Hey dougalhaven,

Sorry, I totally missed your post :(

Would have been happy to provide the lead, but it looks like Paul has beaten me to it! 8) Good job Paul!

Rob

_________________
www.rstorey.co.uk


Top
 Profile  
Reply with quote  
Display posts from previous:  Sort by  
Post a new topicPost a reply Page 1 of 1   [ 12 posts ]


Who is online

Users browsing this forum: No registered users and 1 guest


You cannot post new topics in this forum
You cannot reply to topics in this forum
You cannot edit your posts in this forum
You cannot delete your posts in this forum
You cannot post attachments in this forum

Search for:
Jump to:  
cron


Powered by phpBB © 2000, 2002, 2005, 2007 phpBB Group
twilightBB Style by Daniel St. Jules of Gamexe.net