It is currently Tue Nov 21, 2017 2:47 am


Post a new topicPost a reply Page 3 of 3   [ 39 posts ]
Go to page Previous  1, 2, 3
Author Message
 Post subject:
PostPosted: Thu Apr 09, 2009 10:41 pm 
Mass Poster

Joined: Sun Jul 15, 2007 8:57 am
Posts: 3565
MOVED TO TOP :D :D

_________________
Having a break from online activity for a while to concentrate on music. Please email if you need to get in touch. Matt


Last edited by Cpt Matt Sparrow on Sat May 09, 2009 8:01 am, edited 1 time in total.

Top
 Profile  
Reply with quote  
 Post subject:
PostPosted: Sat May 09, 2009 8:00 am 
Mass Poster

Joined: Sun Jul 15, 2007 8:57 am
Posts: 3565
http://www.ultimate-guitar.com/tabs/j/j ... ee_tab.htm

More Bach :)
Ha ha, this is a great version.

Jack Black plays this as well LMAO! Anyone play/record this?

Matt

_________________
Having a break from online activity for a while to concentrate on music. Please email if you need to get in touch. Matt


Top
 Profile  
Reply with quote  
 Post subject:
PostPosted: Fri Jul 24, 2009 1:08 pm 
Mass Poster

Joined: Sun Jul 15, 2007 8:57 am
Posts: 3565
bump

_________________
Having a break from online activity for a while to concentrate on music. Please email if you need to get in touch. Matt


Top
 Profile  
Reply with quote  
 Post subject:
PostPosted: Fri Jul 24, 2009 4:44 pm 
Mass Poster

Joined: Mon Mar 20, 2006 10:19 am
Posts: 5171
Hey Matt, what was on the cover of that issue, do you recall? As I remember there was audio to go with the practice plan. I'm pretty sure I have the CD with that audio somewhere, I'll have to go in search of... I find it easier to work with plans like that if I have audio of what it's supposed to sound like. ;)


Top
 Profile  
Reply with quote  
 Post subject: Arpeggio section of Crossroads duel... My fingering (in tab)
PostPosted: Thu Oct 15, 2009 5:50 pm 
Mass Poster

Joined: Sun Jul 15, 2007 8:57 am
Posts: 3565
I have been teaching Eugene's Trick Bag for years but was never pleased with the arrangements I saw of this section of the piece. So I re fingered my own version

I would be interested to hear how comfortable you fingers find this arrangement

----------------0-------8--12--8-----0--------------
------------1------10-------------10---1------------
----------2---------------------------------2---------
------2----------------------------------------2------
-0-3----------------------------------------------3--

-----------------0--4-7--4-----------------------------
-----------0--3------------5----0--------------------
---------1--------------------7----1-----------------
---0-2--------------------------------2- 0-----------
-2-----------------------------------------------------

------------------0--3--5--3--------------------------
---------------2---------------5------------------------
---------0--2---------------------6--2--0--------------
-------2-------------------------------------2---------
--0-4-------------------------------------------4-----

------------------------10--13--10--------------------
--------------------10---------------10----------------
-------------7--10-----------------------10-7---------
---0-----7--------------------------------------7----0-
-0----8-------------------------------------------8----

-----------------1--4---7--4----------------------------
----------0--3-----------------6-----0------------------
--------1--------------------------7-----1--------------
---0-3--------------------------------------2--0-------
-2-------------------------------------------------------


----------------------------5----8------12------sl-16---
---------------------5---------5----10-----13----------
--------------5--------5---------------------------------
---------7-------7----------------------------------------
---7-------7---------------------------------------------
-5----8------------------------------------------------0--

pm.............

_________________
Having a break from online activity for a while to concentrate on music. Please email if you need to get in touch. Matt


Top
 Profile  
Reply with quote  
 Post subject:
PostPosted: Wed Dec 09, 2009 2:25 pm 
Mass Poster

Joined: Sun Jul 15, 2007 8:57 am
Posts: 3565
I have just found this marvelous new site
http://www.guitarpress.com/sheet.html

It features a much larger and more up to date amount of classical guitar music!!

Matt

_________________
Having a break from online activity for a while to concentrate on music. Please email if you need to get in touch. Matt


Top
 Profile  
Reply with quote  
 Post subject: New!! Site full of Free Classical guitar sheet music!!
PostPosted: Wed Dec 09, 2009 2:27 pm 
Mass Poster

Joined: Sun Jul 15, 2007 8:57 am
Posts: 3565
I thought Delcamp was good. There is such a huge wealth of sheet music here I am really excited 8)

http://www.guitarpress.com/sheet.html 8)

The print quality is very good and so far the pieces I have looked at are 100 percent accurate.

Matt

_________________
Having a break from online activity for a while to concentrate on music. Please email if you need to get in touch. Matt


Top
 Profile  
Reply with quote  
 Post subject: Video lesson by me on tone changing with the right hand
PostPosted: Wed May 11, 2011 5:00 pm 
Mass Poster

Joined: Sun Jul 15, 2007 8:57 am
Posts: 3565
I recorded this for pupils, to show them how a right hand can really make all the difference with the way it attacks the strings.

I hope you enjoy.

http://www.youtube.com/watch?v=K2jAs-H4 ... ded#at=139

_________________
Having a break from online activity for a while to concentrate on music. Please email if you need to get in touch. Matt


Top
 Profile  
Reply with quote  
 Post subject: Re: Classical Guitar and other related essays/discussions
PostPosted: Mon Oct 10, 2011 9:57 pm 
Cool Member
User avatar

Joined: Fri Jul 07, 2006 1:35 pm
Posts: 296
Location: Europe
Classical guitar lessons were great for me!!! Really helped to set a shape for a sense of melody and timing!!!

_________________
Mikel


Top
 Profile  
Reply with quote  
Display posts from previous:  Sort by  
Post a new topicPost a reply Page 3 of 3   [ 39 posts ]
Go to page Previous  1, 2, 3


Who is online

Users browsing this forum: No registered users and 1 guest


You cannot post new topics in this forum
You cannot reply to topics in this forum
You cannot edit your posts in this forum
You cannot delete your posts in this forum
You cannot post attachments in this forum

Search for:
Jump to:  


Powered by phpBB © 2000, 2002, 2005, 2007 phpBB Group
twilightBB Style by Daniel St. Jules of Gamexe.net